colinburke.github.io

Personal website for Colin Burke

View on GitHub

Track Info

Tab Author/date:

Colin Burke - 2020

Fair Use

Copyright Disclaimer under section 107 of the Copyright Act of 1976, allowance is made for “fair use” for purposes such as criticism, comment, news reporting, teaching, scholarship, education and research.

Notes

Song

Intro (0:00)

    A				     C#m                     B				     F#m
    Trails of fire  You always knew  They would carry me home They'd lead me to you
G|--------------------- |-----------------------|--------------------|--------------|
D|--------------------- |-----------------------|--------------------|--------------|
A|--------------------- |4----------------------|--------------------|--------------|
E|4/5------------------ |-----------------------|7-------------------|2-------------|

    A				     C#m                     B				     F#m
    Trails of fire  You always knew  They would carry me home They'd lead me to you
G|---------------------|------------------------|-------------------|---------------|
D|---------------------|------------------------|-------------------|---------------|
A|---------------------|/4----------------------|-------------------|/9-------------|
E|4/5------------------|------------------------|7------------------|---------------|

Verse (0:15)

  E                               A                              C#m					          A
       Though you can't see the sun, A    new   day  has   begun    And   I   fall   out   of  bed to   a      siren call---
G|--------------------------------|--------------------------------|--------------------------------|-----------------------------|
D|--------------------------------|--------------------------------|--------------------------------|-----------------------------|
A|--------------------------------|--------------------------------|4---4---4---4---4---4---4---4---|-----------------------------|
E|0---0---0---0---0---0---0---0---|5---5---5---5---5---5---5---5---|--------------------------------|5---5---5---5---5---5---5---5|

E                                 D                                A                                B
       In  the  frame  of  the   wall   See  you    in      fire  You   guys   are smiling at me    And     you     inspire
G|--------------------------------|--------------------------------|--------------------------------|-----------------------------|
D|--------------------------------|--------------------------------|--------------------------------|-----------------------------|
A|--------------------------------|5---5---5---5---5---5---5---5---|--------------------------------|-----------------------------|
E|0---0---0---0---0---0---0---0---|--------------------------------|5---5---5---5---5---5---5---5---|7---7---7---7---7---7---7---7|

Pre-Chorus 1 (0:31)

E                                  A                                C#m                              A
  Not good enough If I just        let   them   get   aw-ay         Not  satisfied   un-til          I'm making 'em pay!
G|--------------------------------|--------------------------------|--------------------------------|-----------------------------|
D|--------------------------------|--------------------------------|--------------------------------|-----------------------------|
A|--------------------------------|--------------------------------|4-------4-------4-------4-------|-----------------------------|
E|0-------0-------0-------0-------|5-------5-------5-------5-------|--------------------------------|/5-------5-------5-------5---|    


C#m                                D                                A                             B
I'm a fool for adventure, you know?                                Inside my heart feelin' the Inferno!                Barely
G|--------------------------------|--------------------------------|-----------------------------|-----------------------------|
D|--------------------------------|--------------------------------|-----------------------------|-----------------------------|
A|4-------4-------4-------4-------|5-------5-------5-------5-------|-----------------------------|-----------------------------|
E|--------------------------------|--------------------------------|5-------5-------5-------5----|7-------7--------------------|    

Chorus pt 1 (00:46)

  C#m                              A                                E                                B
  catchin' my breath      Lay my   eyes    on the  crest   Gonna    square  up  to all      of  the  heat    thatis  left    So, I 
G|--------------------------------|--------------------------------|--------------------------------|-----------------------------|
D|--------------------------------|--------------------------------|--------------------------------|-----------------------------|
A|4---4---4---4---4---4---4---4---|--------------------------------|--------------------------------|-----------------------------|
E|--------------------------------|5---5---5---5---5---5---5---5---|0---0---0---0---0---0---0---0---|7---7---7---7---7---7---7---7|

 C#m                               A                                E                                B
  carry the torch         to  in---ferno!  In---ferno!     It's     out of  the park        And I'm  smilin' again,      Herewe  go!
G|--------------------------------|--------------------------------|--------------------------------|-----------------------------|
D|--------------------------------|--------------------------------|--------------------------------|-----------------------------|
A|4---4---4---4---4---4---4---4---|--------------------------------|--------------------------------|-----------------------------|
E|--------------------------------|5---5---5---5---5---5---5---5---|0---0---0---0---0---0---0---0---|7---7---7---7---7---7---7---7|

Chorus pt 2 (same riff) (1:02)

C#m                                A                                E                B
      I   knowI   knowI            knowI   knowI           willbe   here    for     you         Wher-ever    you go      YeahIknow
G|--------------------------------|--------------------------------|--------------------------------|-----------------------------|  
D|--------------------------------|--------------------------------|--------------------------------|-----------------------------|  
A|4---4---4---4---4---4---4---4---|--------------------------------|--------------------------------|-----------------------------|  
E|--------------------------------|5---5---5---5---5---5---5---5---|0---0---0---0---0---0---0---0---|7---7---7---7---7---7---7---7|  


C#m                                A                                E                B
      I   knowI   knowI            knowI   knowI           willbe   here    for     you         Wher-ever    you go      YeahIknow
G|--------------------------------|--------------------------------|--------------------------------|-----------------------------|  
D|--------------------------------|--------------------------------|--------------------------------|-----------------------------|  
A|4---4---4---4---4---4---4---4---|--------------------------------|--------------------------------|-----------------------------|  
E|--------------------------------|5---5---5---5---5---5---5---5---|0---0---0---0---0---0---0---0---|7---7---7---7---7---7---7---7|  

Verse 2 (1:17)

E                       A                        C#m                 A
  Say I don't understand But I don't give a damn   Even told me that I wouldn't reach the top
  
E                      D                 A                      B
  But I follow my grand-fathers' journey  I know I can be the man that I should be

Pre-Chorus #2 (1:32)

E                          A                   C#m                          A  
  I down a coffee, grab my axe and then I'm out  I got a rage inside that's making me shout
                                        
        C#m                      D              A                   B
I get high on the fighting, you know? Inside my heart feelin' the inferno!

Chorus #2 (1:47)

          C#m                      A                        E                     B
Barely catchin' my breath Lay my eyes on the crest Gonna square up to all of the heat that is left

         C#m                A                     E                        B
So, I carry the torch to inferno! Inferno!  It's out of the park And I'm smilin' again, Here we go

Chorus #2 pt2 (2:04)

C#m                   A                    E              B
  I know I know I know I know  I will be here for you Wherever you go, Yeah, I know

C#m                   A                    E              B
  I know I know I know I know  I will be here for you Wherever you go, Yeah, I know

Intro (reprise) (8th notes) (2:19)

A				     C#m                    B				     F#m
Trails of fire  You always knew They would carry me home They'd lead me to you

A				     C#m                    B				     F#m
Trails of fire  You always knew They would carry me home They'd lead me to you

Verse #3 (whole notes, slide on the of each measure) (2:34)

A                  C#m             B                   F#m
All my life Been searching for The place I lost It's what I adore

    A                C#m          B               F#m (Silent)
And all my life Been hoping for A happy life for me

Chorus #3 (2:49)

          C#m                      A                        E                     B
Barely catchin' my breath Lay my eyes on the crest Gonna square up to all of the heat that is left

         C#m                A                     E                        B
So, I carry the torch to inferno! Inferno!  It's out of the park And I'm smilin' again, Here we go

Chorus #3 Pt2

C#m                   A                    E              B
  I know I know I know I know  I will be here for you Wherever you go, Yeah, I know

C#m                   A                    E              B
  I know I know I know I know  I will be here for you Wherever you go, Yeah, I know

Intro, as outro (x4)

A				     C#m                   B				     F#m
Trails of fire  You always knew They would carry me home They'd lead me to you

The tab wants to live here

Thanks! Hope you liked it!